19 de febrero de 2009

Como leer Tablaturas (algo básico para aprender a tocar)

La verdad, es muy simple, solo debes acostumbrarte. Para empezar debes saber que la 1º cuerda es la mas delgada, y en una tablatura es la primera de arriba a abajo.

E------------------------------- 1era cuerda
B------------------------------- 2da cuerda
G------------------------------- 3era cuerda
D------------------------------- 4ta cuerda
A------------------------------- 5ta cuerda
E------------------------------- 6ta cuerda

Ahora que ya sabes el orden de las cuerdas, pasamos a los espacios.

E----------3-------------------
B-----2------------------------
G-------------4----------------
D--------------------0---------
A-------------------------------
E-------------------------------

Los números indican es espacio en que se debe tocar la nota. Cuando sale un 0, significa que se toca la cuerda al aire.

También pueden haber 2 o mas notas a la vez, esto se da cuando hay 2 o más notas en linea vertical:

E:------------2------------------------
B:------------2-----------5------------
G:------------------------4------------
D:-------------------------------------
A:-------------------------------------
E:-------------------------------------

Bueno esto es lo básico de las tablaturas, ya que tambien hay tecnicas como el bend, el slide, el vibrato, etc, que se escriben con distintos signos:

h = hammer-on (golpear la nota con un dedo de la mano izquierda)

p = pull-off (tirar de una cuerda con un dedo de la mano izq., para que suene al aire)

/ = slide up (dezlizar el dedo sin soltar la cuerda, hacia arriba)

\ = slide down (dezlizar el dedo sin soltar la cuerda, hacia abajo)

s = slide (dezlizar el dedo sin soltar la cuerda )

p.m.= palm muted (http://www.youtube.com/watch?v=ZdSX4kZb3Ys)

b = bend ( lebantar la cuerda para subir de tono, ver Tecnicas de Guitarra Electrica)

r = reverse bend, or release bend (bend hacia abajo)

t = right hand tap (http://www.youtube.com/watch?v=6v5nzbKT7S0)

+ = right hand tap (http://www.youtube.com/watch?v=6v5nzbKT7S0)

x = rhythm click or muted string ( tocar sin apretar la nota)

v = vibrato (hacer que la nota "vibre", ver "Tecnicas de Guitarra Electrica)

~ = vibrato (hacer que la nota "vibre", ver, Tecnicas de Guitarra Electrica)
,
(5) = ghost note, or optional note

<5> = harmonic

8 comentarios:

  1. quisiera saber que pasa cuando en el tab estan las notas en vertical, como se tocan??? ej...

    Intro
    e|-------------------------------------------|
    B|-------------------------------------------|
    G|-------------------------------------------|
    D|----66644444-66644444-66644444-------------|
    A|-------66666446-66666446-66666446--44442222|
    E|-----------------------------------66664444|

    acaso en simultaneo....

    ResponderEliminar
    Respuestas
    1. se toca primero 66 y des pues 6en la 4 y 6 en la 5 despues 4 en la 4 y 6 en la 5 ocea que es como charrasqueo de 2 cuerdas y susesivamente si hay 3 o mas notas en vertical se tocan al mismo tiempo
      ej: acorde de re mayor
      -2-
      -3-
      -2-
      -0-
      ---
      ---

      Eliminar
  2. Coño no va la primera de Abajo hacia Arriba.

    Me explico la mas delgada a la mas gruesa.

    ResponderEliminar
  3. La primera de la tablatura es la sexte cuerda (la mas gorda)

    ResponderEliminar
    Respuestas
    1. Si pero en el diagrama de la tablatura es la que se ve abajo, por lo que la primera línea corresponde a la primera cuerda y la sexta cuerda sería la última tal como está explicado en el artículo.

      Eliminar
  4. Felicidades buen blog para personas como yo que estamos aprendiendo... si bajas tablaturas de canciones comunes te lo agradeceria mucho broth.. Exito

    ResponderEliminar
  5. hola como esta yo estoy aprendiendo a tocar guitarra y me gustaria que bajes mas

    ResponderEliminar
  6. y que significan estas letras arriba de un tab gringo T S T Q E etc

    ResponderEliminar

Duelo De Guitarra

Joe Satriani

Angus Young (AC/DC)

Tom Morello (Rage Against The Machine)

Slash (Guns N Roses)

Mas sobre la escala Pentatonica